Song name
# A B C D E F G H I J K L M N O P Q R S T U V W X Y Z

Misc Traditional - Tamo Daleko tab

                                  Tamo Daleko                                   
serbian traditional
srpska narodna
3/4

tabbed by Djordje Putnik
www.midiguitar.de


Chords       Em                               G                Em              

             Ta-             mo       da-     le-      e-      ko,       da-   

             H.              H        Q       H        Q       Q    Q    Q     
E||-------|---------------|----------------|----------------|-----------------|
B||-------|---------------|----------------|----------------|-----------------|
G||-------|---------------|----------------|--0-------------|-----------------|
D||-------|--2------------|----------------|-----------4----|--2---------2----|
A||-------|---------------|--2--------2----|----------------|-----------------|
E||-------|---------------|----------------|----------------|-----------------|


  G                D                 Em                            
  le-      ko      kraj mo-  o-      ra,-                          
  H        Q       Q    Q    Q       H.                            
----------------|-----------------|---------------|---------------|
--0--------0----|-------0----1----|--0------------|---------------|
----------------|--2--------------|---------------|---------------|
----------------|-----------------|---------------|---------------|
----------------|-----------------|---------------|---------------|
----------------|-----------------|---------------|---------------|


                    G                 D                              
  ta-  mo   je      mo-  o-   je      se-      e-      lo,           
  Q    Q    Q       Q    Q    Q       H        Q       H.            
-----------------|-----------------|----------------|---------------|
-----------------|--0--------------|----------------|---------------|
------------0----|-------2----0----|--2--------0----|---------------|
--2----4---------|-----------------|----------------|--4------------|
-----------------|-----------------|----------------|---------------|
-----------------|-----------------|----------------|---------------|


  G                 D                 Em                            
  ta-  mo   je      Sr-  r-   bi-     ja.                           
  Q    Q    Q       Q    Q    Q       H.                            
-----------------|-----------------|---------------|---------------|
--0----1----0----|-----------------|---------------|---------------|
-----------------|--2----0---------|---------------|---------------|
-----------------|------------4----|--2------------|---------------|
-----------------|-----------------|---------------|---------------|
-----------------|-----------------|---------------|---------------|


  O,   zar  je      mo-  ra-  la      doc,                          
  Q    Q    Q       Q    Q    Q       H.                            
-----------------|-----------------|---------------|---------------|
-----------------|--0--------------|--0------------|---------------|
------------0----|-------2----0----|---------------|---------------|
--2----4---------|-----------------|---------------|---------------|
-----------------|-----------------|---------------|---------------|
-----------------|-----------------|---------------|---------------|


                                       D                             
  ta   tuz- na,     ne-  srec- na      noc,-                         
  Q    Q    Q       Q    Q     Q       H.                            
-----------------|------------------|---------------|---------------|
-----------------|--0---------------|---------------|---------------|
------------0----|-------2-----0----|--2------------|---------------|
--2----4---------|------------------|---------------|---------------|
-----------------|------------------|---------------|---------------|
-----------------|------------------|---------------|---------------|


                                                       D7            
  ka-  da   si      dra- ga-  ne      mo-      o-      oj,           
  Q    Q    Q       Q    Q    Q       H        Q       H.            
-----------------|-----------------|----------------|---------------|
-----------------|-----------------|-----------0----|--1------------|
--2----2----2----|--2----0---------|--2-------------|---------------|
-----------------|------------4----|----------------|---------------|
-----------------|-----------------|----------------|---------------|
-----------------|-----------------|----------------|---------------|


  G                 D                 Em             
  o-   ti-  so      u    kr-  vav-    boj?           
  Q    Q    Q       Q    Q    Q       H.             
-----------------|-----------------|---------------||
--0----1----0----|-----------------|---------------||
-----------------|--2----0---------|---------------||
-----------------|------------4----|--2------------||
-----------------|-----------------|---------------||
-----------------|-----------------|---------------||




Duration Legend
---------------
W - whole
H - half
Q - quarter
Tap to rate this tab
 
# A B C D E F G H I J K L M N O P Q R S T U V W X Y Z