Song name
# A B C D E F G H I J K L M N O P Q R S T U V W X Y Z

Misc Traditional - American National Anthem chords

-----------------------------------------------------------------------------
			    American national anthem
-----------------------------------------------------------------------------
Tabbed by: Sylar
Email: Sylar__93__@hotmail.it
Description: This tab is done only by ear, so there may be some error...if you find one, 
email me at Sylar__93__@hotmail.it
hope you like it...
Bye ;-)

Tuning: standard

e|--------------------------------------------------------------------------|
B|--------------------------------------------------------------------------|
G|------------------------------5/7---5h7p5---3-------------------------5/7-|
D|--1/3---------------3---3/8---------------------------------1/3---3-------|
A|--------5-------5-------------------------------5/7---7h8-----------------|
E|------------6-------------------------------------------------------------|


e|--------------------------------------------------------------------------|
B|--------------------------------------------------------------------------|
G|--5h7p5---3---------------------------------------------------------------|
D|--------------5/7---3/5---7---8---8---3-----------1/3---------------3-----|
A|------------------------------------------5-------------5-------5---------|
E|----------------------------------------------6-------------6-------------|


e|--------------------------------------------------------------------------|
B|--------------------------------------------------------------------------|
G|--------5/7---5h7p5---3-------------------------5/7---5h7p5---3-----------|
D|--3/8---------------------------------1/3---3---------------------5/7-----|
A|--------------------------5/7---7h8---------------------------------------|
E|--------------------------------------------------------------------------|


e|--------------------------------------------------------------------------|
B|--------------------------------------------------------------------------|
G|--------------------------------3/7---7---7---8---10---10---8---7---------|
D|--3/5---7---8---8---3-----------------------------------------------10----|
A|------------------------5-------------------------------------------------|
E|----------------------------6---------------------------------------------|


e|--------------------------------------------------------------------------|
B|--------------------------------------------------------------------------|
G|--7---8---8---8---7-------------------------------------------------------|
D|----------------------10---8---7---3/5---7---8---------------------8---8--|
A|-------------------------------------------------5---7---8---3/8----------|
E|--------------------------------------------------------------------------|


e|--------------------------------------------------------------------------|
B|--------------------------------------------------------------------------|
G|------------------------5---8---7---5--------------------------------7----|
D|--8---7---5---5---3/5-------------------8---8---7-----------8---10--------|
A|----------------------------------------------------8---8-----------------|
E|--------------------------------------------------------------------------|


e|--------------------------------------------------------------------------|
B|--------------------------------------------------------------------------|
G|--8---10------------------------------------------------------------------|
D|-----------3/8---10---12---13---10---8------------------------------------|
A|--------------------------------------------------------------------------|
E|--------------------------------------------------------------------------|

| /  slide up
| h  hammer-on
| p  pull-off
=============================================================================
Tap to rate this tab
 
# A B C D E F G H I J K L M N O P Q R S T U V W X Y Z