Song name
# A B C D E F G H I J K L M N O P Q R S T U V W X Y Z

Misc Traditional - Finland National Anthem tab

e|-------------------15~-----------------------|
B|10--------16-18---------16----18-16-15-16----|
G|--12-13-15~------15--------17----------------|
D|---------------------------------------------|
A|---------------------------------------------|
E|---------------------------------------------|


e|--13------------------------------------------|
B|-----16-15-13----------13---------------------|
G|15------------15-13-12----15------------------|   
D|----------------------------------------------|  Repeat
A|----------------------------------------------|
E|----------------------------------------------|


e|---------------13-15-------------------------|
B|--16--------16-------16----18-16-15-16-------|
G|15---15---15------------17-------------------|
D|-------17------------------------------------|
A|---------------------------------------------|
E|---------------------------------------------|

Tap to rate this tab
 
# A B C D E F G H I J K L M N O P Q R S T U V W X Y Z