Song name
# A B C D E F G H I J K L M N O P Q R S T U V W X Y Z

Misc Traditional - Joy To The World tab

Similar to some other tabs, except the ending is slightly fixed. Enjoy!


Song: Joy to the World
Tabbed by Savage952

e|---------------------------------------------|
B|---3--2--0--------------------0--0--2--2--3--|
G|------------2--0-----------2-----------------|
D|------------------4--2--0--------------------|
A|---------------------------------------------|
E|---------------------------------------------|

e|-----------------------------------------------|
B|--3--3p2--0--------------3--3p2--0-------------|
G|-------------2--2--0----------------2--2--0----|
D|----------------------4----------------------4-|
A|-----------------------------------------------|
E|-----------------------------------------------|

e|-----------------------------------------------------|
B|-----------------------------------------------------|
G|-----------------0--2--0------------------0----------|
D|--4--4--4--4--4-----------4--2--2--2--2h4------------|
A|-----------------------------------------------------|
E|-----------------------------------------------------|

e|----------------------------------------|
B|-----------3--0-------------------------|
G|--0--------------2--0---0---------------|
D|----4p0---------------4---4--2--0-------|
A|----------------------------------------|
E|----------------------------------------|
Tap to rate this tab
# A B C D E F G H I J K L M N O P Q R S T U V W X Y Z