Song name
# A B C D E F G H I J K L M N O P Q R S T U V W X Y Z

Misc Traditional - Jul Jul Strlande Jul tab

-------------------------------------------------------------------------------
	    Jul, jul, strålande jul - Gustaf Nordqvist/Edvard Evers
-------------------------------------------------------------------------------
Tabbed by: Marcus Johnsson
Email: nm_johnsson@hotmail.com


  Jul,       jul,      strålande   jul,      glans över  vi-   -ta sko-       -gar
   D          A          D          A          D          A     A7 Dsus4        D
   +  +  +  +  +  +  +  +  +  +  +  +  +  +  +  +  +  +  +  +  +  +  +  +  +  +  +  +  +
e|-2--------|-0--------|-2---3/5--|-0--------|-2--3--/5-|-5------5-|-5--------|-5------5-|
B|-3--------|-2--------|-3--------|-2--------|-3--------|-5------8-|-8--------|-7---7/8--|
G|-2--------|-2--------|-2--------|-2--------|-2--------|-6------6-|-7--------|-7--------|
D|-0--------|-2--------|-0--------|-2--------|-0--------|-7------5-|-7--------|-7--------|
A|----------|-0--------|----------|-0--------|----------|-7------7-|-5--------|-5--------|
E|----------|----------|----------|----------|----------|-5------5-|----------|----------|

  himmelens kronor med gnistrande ljus,      glimmande   bågar       i alla Guds hus
   Em         A          Em         A          G          Bm           G        Bm
   +  +  +  +  +  +  +  +  +  +  +  +  +  +  +  +  +  +  +  +  +  +  +  +  +  +  +  +  +
e|-7--------|-5--------|-7---9p7--|-5--------|-3--------|-2--------|-2-3--5p3-|-2-----2--|
B|-8--------|-5--------|-8--------|-5--------|-3--------|-3---3----|-3-3------|-3------5-|
G|-9--------|-6--------|-9--------|-6--------|-4--------|-4---4----|-4-4------|-4--------|
D|-9--------|-7--------|-9--------|-7--------|-5--------|-4---4----|-4-5------|-4--------|
A|-7--------|-7--------|-7--------|-7--------|-5--------|-2---2----|-2-5------|-2--------|
E|----------|-5--------|----------|-5--------|-3--------|----------|---3------|----------|

psalm som är sjungen från tid till tid,       eviga   längtan till ljus   och frid!
   D          A          Bm         D          A          D          A          F#
   +  +  +  +  +  +  +  +  +  +  +  +  +  +  +  +  +  +  +  +  +  +  +  +  +  +  +  +  +
e|----------|-5--------|-2--------|----------|-0--------|-2---p0---|-0--------|-2--------|
B|-3--------|-5--------|-3--------|-3--------|-2--------|-3-----3--|-2--------|-2--------|
G|-2--------|-6--------|-4--------|-2--------|-2--------|-2--------|-2--------|-3--------|
D|-0--------|-7--------|-4--------|-0--------|-2--p0-2--|-0--------|-2--p0-2--|-4--------|
A|----------|-7--------|-2--------|----------|-0--------|----------|-0--------|-4--------|
E|----------|-5--------|----------|----------|----------|----------|----------|-2--------|

  Jul,       jul,      strålande   jul,      glans över  vi-   -ta sko-       -gar
   D          A          D          A          D          A     A7   A          D
   +  +  +  +  +  +  +  +  +  +  +  +  +  +  +  +  +  +  +  +  +  +  +  +  +  +  +  +  +
e|-2--------|-0--------|-2---3/5--|-0--------|-2--3--/5-|-5------5-|-0--------|----------|
B|-3--------|-2--------|-3--------|-2--------|-3--------|-5------8-|-2--------|-3--------|
G|-2--------|-2--------|-2--------|-2--------|-2--------|-6------6-|-2--------|-2--------|
D|-0--------|-2--------|-0--------|-2--------|-0--------|-7------5-|-2--------|-0--------|
A|----------|-0--------|----------|-0--------|----------|-7------7-|-0--------|----------|
E|----------|----------|----------|----------|----------|-5------5-|----------|----------|


Kom, kom, signade jul!
Sänk dina vita vingar
över stridernas blod och larm,
över all suckan ur människobarm,
över de släkten som gå till ro,
över de ungas dagande bo!
Kom, kom, signade jul,
sänk dina vita vingar.



| /  slide up
| p  pull-off
===============================================================================
Tap to rate this tab
 
# A B C D E F G H I J K L M N O P Q R S T U V W X Y Z