Song name
# A B C D E F G H I J K L M N O P Q R S T U V W X Y Z

Misc Traditional - When Johnny Comes Marching Home tab

my first tab :)
standard tuning

e|---------------------------------------------------------------------------|
B|------------------0--1--0--1-----------------------------------------------|
G|-----0-2-2-2-2-----------------2--0-------0--------------------------------|
D|---------------------------------------2-----------------------------------|
A|---------------------------------------------------------------------------|
E|---------------------------------------------------------------------------|

e|-----------------------------------0-------0-------------------------------|
B|-------------------0--1--0--1---3-------1----------------------------------|
G|------0-2-2-2-2------------------------------------------------------------|
D|---------------------------------------------------------------------------|
A|---------------------------------------------------------------------------|
E|---------------------------------------------------------------------------|

e|-------0--0-0--------------------------------------------0-----------------|
B|-0-1-3--------3-1-3--3-3---0-1-3--3-3-1-0-1--1-1---0-1-3----3--1--0--------|
G|---------------------------------------------------------------------------|
D|---------------------------------------------------------------------------|
A|---------------------------------------------------------------------------|
E|---------------------------------------------------------------------------


e|---------------------------------------------------------------------------|
B|---------------------------------------------------------------------------|
G|---0-2-2-2-2--0-2----------------------------------------------------------|
D|---------------------------------------------------------------------------|
A|---------------------------------------------------------------------------|
E|---------------------------------------------------------------------------|
Tap to rate this tab
 
# A B C D E F G H I J K L M N O P Q R S T U V W X Y Z