Song name
# A B C D E F G H I J K L M N O P Q R S T U V W X Y Z

Misc Traditional - When Johnny Comes Marching Home tab

E||--------------------------------------|-----------------------------|
B||--------------------------------------|-----------------------------|
G||--------------------0--------0--------|-----------------------------|
D||-----2--2--2-----4--------4--------2--|--0-------------0------------|
A||--2-----------------------------------|-------------2------------2--|
E||--------------------------------------|-----------------------------|

-----------------------------------------|-----------------------------|
-----------------------------------------|-----------------------------|
-----------------------0--------0-----2--|--4----------0--4--------0-2-|
--------2--2--2-----4--------4-----------|-----------------------------|
-----2-----------------------------------|-----------------------------|
-----------------------------------------|-----------------------------|

-------------------------------------|--------------------------------------|
-------------------------------------|--------------------------------------|
-4-----4--4--2--0--2-----2--2--------|--0-----0--0--------------------0--2--|
----------------------------------4--|--------------4--2--4-----4--4--------|
-------------------------------------|--------------------------------------|
-------------------------------------|--------------------------------------|

----------------------|-----------------------------||
----------------------|-----------------------------||
--4----2----0---------|-----------------------------||
-----------------4----|-----2--2--2-----0--2--------||
----------------------|--2--------------------------||
----------------------|-----------------------------||
Tap to rate this tab
 
# A B C D E F G H I J K L M N O P Q R S T U V W X Y Z