Song name
# A B C D E F G H I J K L M N O P Q R S T U V W X Y Z

Misc Traditional - Advance Australia Fair tab

This is my own variation on the Australian national anthem. I haven't found any remotely 
versions of it out there so I hope people enjoy this.
My tabbing ability isn't great (I don't have a sense for the timing but if you watch 
youtube vid you should be able to figure it out: http://www.youtube.com/watch?v=sdbyMtdd2CQ).

Tone notes: I like to play with quite a lot of gain and some delay effect. It would 
also sound good in D standard tuning.

Enjoy and please comment/rate,
Nitestick

~ 	vibrato
 	natural harmonic
V 	tremolo bar dip
\__/ 	dive bomb, hold until forward slash
					   vibrato with bar
e----------------------------------------------------|
B----------------------------------------------------|
G----------------------------------------------------|
D-0--1/5~~~~-0-----0-5-V-V-5/11-9-7-6-7--<7>~~~~~----|
A--------------2~~---------3/9--7-5-4-5--<7>~~~~~----|
E----------------------------------------------------|

e-----------------------------------------------------|
B-------------------------------------------2/10~~~~~-|
G-----------------------------------------------------|
D-0--1/5~~-----0-V-V-5/11-9-7-6-4-2\________/---------|
A----------2---------3/9--7-5-4-2-0\________/---------|
E------------3----------------------------------------|

e-----------------------------------------------------|
B-10/12~~-13-15-12\10~~------10/12~~-13-15/20-19-17~~-|
G----------------------11-11--------------------------|
D-----------------------------------------------------|
A-----------------------------------------------------|
E-----------------------------------------------------|

e------------------------------------------------------------|
B-16\10~~10/12~~-13-15-12\10~~-15-15--17-19--15-17--14-15~~~-|
G------------------------------------------------------------|
D------------------------------------------------------------|
A------------------------------------------------------------|
E------------------------------------------------------------|

e------------------------------------------------------------------|
B-19-20-19-17-15-14-17-14\10~~~~10/15--17-19~~~-15-17~~~-14-15~~~~-|
G------------------------------------------------------------------|
D------------------------------------------------------------------|
A------------------------------------------------------------------|
E------------------------------------------------------------------|


Tabbed by Nitestick
Tap to rate this tab
 
# A B C D E F G H I J K L M N O P Q R S T U V W X Y Z