Song name
# A B C D E F G H I J K L M N O P Q R S T U V W X Y Z

Misc Traditional - Ja Vi Elsker tab

Song: Ja, Vi Elsker (National anthem of Norway)
Author: B. Bjørnson, R. Nordraak
Tabbed by: Henrik Engebretsen
@: henrikengebretsen@gmail.com


e|--------|--------|--------|--------|--------|--------|--------|--------|
B|--------|--------|--------|--------|--------|--------|--------|--------|
G|--------|--------|--------|--------|--------|--------|--------|--------|
D|--------|--------|---6----|--------|6-------|--------|---66-8-|9-------|
A|9--76---|----6-7-|9---9---|6-------|---97-6-|--6-7-9-|9-------|--------|
E|------9-|7-9-----|------7-|--------|--------|9-------|--------|--------|

e|--------|--------|--------|--------|--------|--------|--------|--------|
B|--------|--------|--------|--------|--------|--------|--------|--------|
G|--------|--------|--------|--------|--------|--------|--------|6-----66|
D|9--98866|--------|6--6----|--------|--6-6-8-|8---9---|9--98-9-|--------|
A|--------|9---6---|----9-9-|7-----99|9-------|--------|--------|--------|
E|--------|--------|--------|--------|--------|--------|--------|--------|

e|--------|--------|--------|--------|
B|--------|--------|--------|--------|
G|6-8-9-8-|6-------|--------|--------|
D|--------|----9-86|---66-8-|9-------|
A|--------|--------|9-------|--------|
E|--------|--------|--------|--------|


This should be pretty accurate. Enjoy!
Please rate and comment.
Tap to rate this tab
# A B C D E F G H I J K L M N O P Q R S T U V W X Y Z