Song name
# A B C D E F G H I J K L M N O P Q R S T U V W X Y Z

Misc Traditional - Turn Your Eyes Upon Jesus tab

Okay so this is my first time making a tab so if it sucks let me know.

Thanks hope you like it.

Play the tab as many time through you think is needed.


e|---------------------------------------------------------------------------|
B|---------------------------------------------------------------------------|
G|----0-----0-3-0--------------------------1----1-1---5-----1--0---0---------|
D|------------------3-1---1---1-------------------------------------3--------|
A|---------------------------------------------------------------------------|
E|---------------------------------------------------------------------------|

e|---------------------------------------------------------------------------|
B|---------------------------------------------------------------------------|
G|-1--3-3-3-3-0-------------------------------0-----0--1---0-----------------|
D|--------------------3----1-1-1-1----1--3-------3--------------3----1-------|
A|---------------------------------------------------------------------------|
E|---------------------------------------------------------------------------|

e|---------------------------------------------------------------------------|
B|---------------------------------------------------------------------------|
G|----0-----0-3-0--------------------------1----1-1---5-----1--0---0---------|
D|------------------3-1---1---1-------------------------------------3--------|
A|---------------------------------------------------------------------------|
E|---------------------------------------------------------------------------|

e|---------------------------------------------------------------------------|
B|---------------------------------------------------------------------------|
G|-1--3-3-3-3-0-------------------------------0-----0--1---0-----------------|
D|--------------------3----1-1-1-1----1--3-------3--------------3----1-------|
A|---------------------------------------------------------------------------|
E|---------------------------------------------------------------------------|
Tap to rate this tab
# A B C D E F G H I J K L M N O P Q R S T U V W X Y Z