Song name
# A B C D E F G H I J K L M N O P Q R S T U V W X Y Z

Misc Traditional - Bahay Kubo tab

The Filipino Vegetable Song, BAHAY KUBO !

Tabbed by: RaziBoy
Email: razinavarro@yahoo.com

NOTE: The "s" stands for "slide"


e|------------------------|---------------------------|
B|------------------------|---------------------------|
G|---5~-5s7-4-------------|--------------7-7-7-7s9-7-5|
D|-5----------5-7-7-7s9-5-|----5-5h7-5-4--------------|
A|------------------------|7-8------------------------|
E|------------------------|---------------------------|

e|-------------------------------|-------------------------------|
B|-------------------------------|-------------------------------|
G|-----5-5s7-5-4-----------------|-------------------------------|
D|-5-5-----------5-5h7-7-7-7s9-5-|-5-5-5h7-7-7-7s9-9-9-9-7-9-9h10|
A|-------------------------------|-------------------------------|
E|-------------------------------|-------------------------------|
Tap to rate this tab
 
# A B C D E F G H I J K L M N O P Q R S T U V W X Y Z