Song name
# A B C D E F G H I J K L M N O P Q R S T U V W X Y Z

Misc Traditional - Takai-yama tab

----------------------------------------------------------------------------
			           Takai-Yama
----------------------------------------------------------------------------
                           Traditional Japanese Folksong
                             Tabbed by: Cade Nickels
 
Tuning: Standard (EADGBE)

e|--------|-------------|--------|---------------|
B|--------|-------------|--------|---------------|
G|--2-0-2-|-------------|----5---|----2p0---0-2--|
D|--------|-5p2-0-2/5-7-|--7---7-|-5------2------|
A|--------|-------------|--------|---------------|
E|--------|-------------|--------|---------------|


e|----------|-------------|-------|-------|-------|-----------|------------|
B|----------|-------------|-------|-------|-------|-----------|------------|
G|--2-0-0-2-|-------------|-5---0-|-------|-------|-----------|------------|
D|----------|-5p2-0-2/5-7-|---7---|-2-2-0-|-2-2-0-|-2-2-0---0-|-2-2-0---0--|
A|----------|-------------|-------|-------|-------|-------3---|-------3----|
E|----------|-------------|-------|-------|-------|-----------|------------|


Repeat as necessary. I'm not exactly sure how many
times its played traditionally? If anyone has an answer let me know.



************************************

| /   slide up
| p   pull-off

************************************
Tap to rate this tab
# A B C D E F G H I J K L M N O P Q R S T U V W X Y Z