Song name
# A B C D E F G H I J K L M N O P Q R S T U V W X Y Z

Misc Traditional - South African National Anthem tab

Hi to all, this is very easy if you know the tune this will sound great when
played.

My first Try at it good luck and God Bless ya all!

e|----------------------------------|
B|----------------------------------|
G|---777--9---11-11---99--7---------|
D|----------------------------------|
A|----------------------------------|
D|----------------------------------|

e|----------------------------------|
B|----------------------------------|
G|11-11---9--11---12-12--11--11---9-|
D|----------------------------------|
A|----------------------------------|
D|----------------------------------|

e|----------------------------------|
B|----------------------------------|
G|---777--9---11-11---9--11/12\11---|
D|----------------------------------|
A|----------------------------------|
D|----------------------------------|

e|----------------------------------|
B|----------------------------------|
G|---9-7-6-7-9-7-------9-7-6-7-9-7--|
D|----------------------------------|
A|----------------------------------|
D|----------------------------------|

Tabbed by  Stanley Blake Mans any comments can be sent to rooirugribbok@gmail.com
Composed by Enoch Sontonga, a Methodist school teacher.
Wiki it.
Tap to rate this tab
# A B C D E F G H I J K L M N O P Q R S T U V W X Y Z