Song name
# A B C D E F G H I J K L M N O P Q R S T U V W X Y Z

Misc Traditional - Hatikva Israeli National Anthem tab

Tablature

  Dm        Gm   Dm  Gm   Dm   A7   Dm   Dm      Gm   Dm Gm   Dm   A7   Dm
e:---------|--------|---------|---------|--------|-------|--------|--------|
B:---------|---3----|---------|---------|--------|---3---|--------|--------|
G:---0-2-2-|323--2--|---------|---------|---0-2-2|323--2-|--------|--------|
D:023------|--------|5-55-3-3-|2023-0---|023-----|-------|5-55-3-3|-2023-0-|
A:---------|--------|---------|-------0-|--------|-------|--------|--------|
E:---------|--------|---------|---------|--------|-------|--------|--------|
  between breakates are optional bridge by the piano 

                   -->                      -->
  Dm  Bb   C7   F          Dm  Bb   C7   F         Am    Dm  GmC7F
e:--------|-------|-------|--------|-------|------|---------|-------|
B:--3-3-3-|131----|-------|--3-3-3-|131----|------|1-111----|---1---|
G:--------|---3-2-|-------|--------|---3-2-|(2-23)|---------|023-20-|
D:0-------|-------|(0-2-3)|0-------|-------|------|------3-3|------3|
A:--------|-------|-------|--------|-------|------|---------|-------|
E:--------|-------|-------|--------|-------|------|---------|-------|



                 -->
  Gm  Dm  A7   Dm        Gm    Dm     C7            F     Gm     Dm
e:--------------|-------|-----------|---------8-|----------|---------|--------|
B:--------------|-------|8-888------|-8-10-11---|10-8-----8|--8------|--------|
G:0-0--0--------|-------|------10-10|-----------|-----10---|-----10--|10--10--|
D:----3-3-2023-0|(0-2-3)|-----------|-----------|----------|---------|--------|
A:--------------|-------|-----------|-----------|----------|---------|--------|
E:--------------|-------|-----------|-----------|----------|---------|--------|
                         up one octabe tempo down in half step(Ritenuto)

  A7        Dm
e:----------5-|
B:----------6-|
G:9-7--9-10-7-|
D:----------7-|
A:----------5-|
E:------------|
as the melody goes up one octabe You might consider shifting(if your not
allready on 'em)Bar Chords (barre) Sounds Better.


lyric:
Kol od balevav p'nimah
Nefesh Yehudi homiyah
Ulfa'atey mizrach kadimah
Ayin l'tzion tzofiyah
Od lo avdah tikvatenu
Hatikvah bat shnot alpayim
L'hiyot am chofshi b'artzenu
Eretz Tzion v'Yerushalayim
Tap to rate this tab
# A B C D E F G H I J K L M N O P Q R S T U V W X Y Z