Song name
# A B C D E F G H I J K L M N O P Q R S T U V W X Y Z

Misc Traditional - Sailors Hornpipe tab

-------------------------------------------------------------------------------
			     Sailor's Hornpipe/Fisherman's Jig - Misc Traditional
-------------------------------------------------------------------------------
Tabbed by: edwardzk
Email:annoyingmole26@gmail.com

Tuning:Standard
Key: G Major

Structure: ABABCB

Section A.

e|--3--2--3---------------------3--2--3------7--5--3--5--------5--3--2--3----|
B|------------------3--1--0--3---------------------------2--2----------------|
G|-------------0--0----------------------------------------------------------|
D|---------------------------------------------------------------------------|
A|---------------------------------------------------------------------------|
E|---------------------------------------------------------------------------|

e|--2--0-----|
B|--------3--|
G|-----------|
D|-----------|
A|-----------|
E|-----------|

Section B.

e|-----0--2--3--2--0-----0---------------------------------------------------|
B|--3-----------------3-----3--1--0--1--0-----------------------------------0|
G|-----------------------------------------2--0--2--0-----------------0--2---|
D|-----------------------------------------------------4--2--0--2--4---------|
A|---------------------------------------------------------------------------|
E|---------------------------------------------------------------------------|

e|-------------3--|
B|--1--3--0-------|
G|-----------0----|
D|----------------|
A|----------------|
E|----------------|

Section C

e|--------3---------3------------------------5--------5-----------|
B|-----3---------3---------3-----5--5-----5--------5--------5--5--|
G|--4---------4---------4-----5--------6--------6--------6--------|
D|----------------------------------------------------------------|
A|----------------------------------------------------------------|
E|----------------------------------------------------------------|

End.

Please comment/Rate
Thanks
Tap to rate this tab
# A B C D E F G H I J K L M N O P Q R S T U V W X Y Z