Song name
# A B C D E F G H I J K L M N O P Q R S T U V W X Y Z

Misc Traditional - American National Anthem tab

Tuning: Standard.
Contact: kitttenishheree@gmail.com
Have fun :)





e-----------6--10-8-6-------------10-8-6-5---4-6-6----------|
B--6--3--3-6-----------3-5-6---6-6---------8---------6-3----|
G------3-------------------------------------------------3--| X2
D-----------------------------------------------------------|
A-----------------------------------------------------------|
E-----------------------------------------------------------|

e--10-10-10-11-13-13--11-10-8-10-11-11-|
B--------------------------------------|
G--------------------------------------|
D--------------------------------------|
A--------------------------------------|
E--------------------------------------|

e-11-10--8-6-5--3-5-6--6--------|
B-----------------------6-3-----|
G---------------------------3---|
D-------------------------------|
A-------------------------------|
E-------------------------------|

e---6-6-6-5------8-11-10-8-6---5--|
B--6--------8-8-8-----------------|
G---------------------------------|
D---------------------------------|
A---------------------------------|
E---------------------------------|

e----6--8-10-11/13--6-8-10--11-8--6--|
B-6-6--------------------------------|
G------------------------------------|
D------------------------------------|
A------------------------------------|
E------------------------------------|
Tap to rate this tab
 
# A B C D E F G H I J K L M N O P Q R S T U V W X Y Z