Misc Traditional - Sri Lanka National Anthem tab

play this fingerstyle...far from perfect but i couldn't really find anything in the 
so here's how i managed to play it.


BPM = 180


     Q    Q    Q       Q    Q    Q    Q       Q    Q    Q
E||--0---------0----|----------------------|-----------------|
B||-----------------|--3---------0----3----|--1--------------|
G||-----------------|----------------------|-----------------|
D||-----------------|----------------------|-----------------|
A||--3--------------|----------------------|--3---------0----|
E||-----------------|--3-------------------|-----------------|


  Q    Q    Q    Q       Q    Q    Q    Q       Q    Q    Q    Q
----------------------|------------0---------|--0----1----3----5----|
------------1----0----|--1----3---------3----|----------------------|
----------------------|----------------------|----------------------|
----------------------|----------------------|--2-------------------|
----------------------|--3-------------------|----------------------|
--3---------3---------|----------------------|----------------------|


  Q    Q    Q    Q       Q    Q    Q    Q       Q    Q    Q    Q
--3--------------8----|--7--------------5----|--3--------------1----|
----------------------|--0-------------------|----------------------|
--0-------------------|----------------------|--0-------------------|
----------------------|----------------------|----------------------|
----------------------|----------------------|----------------------|
----------------------|----------------------|----------------------|


  Q    Q    Q    Q       Q    Q    Q    Q       Q    Q    Q       Q
--0--------------0----|----------------------|-----------------|-------|
----------------------|--3---------0----3----|--1--------------|-------|
----------------------|----------------------|-----------------|-------|
--2-------------------|----------------------|-----------------|-------|
----------------------|----------------------|--3---------0----|-------|
----------------------|--3-------------------|-----------------|--3----|


  Q    Q    Q    Q       Q    Q    Q    Q       Q    Q    Q    Q
----------------------|----------------------|----------------------|
----------------------|----------------------|--3--------------3----|
--0----5----5----5----|--5----5----4----5----|----------------------|
----------------------|----------------------|--0-------------------|
----------------------|--3-------------------|----------------------|
--3-------------------|----------------------|----------------------|


  Q    Q    Q    Q       Q    Q    Q    Q       Q    Q    Q    Q
----------------------|--1----3----3----3----|--3----3----2----5----|
--3----5----3----5----|----------------------|----------------------|
----------------------|----------------------|--4-------------------|
--0-------------------|----------------------|------------4---------|
----------------------|----------------------|----------------------|
----------------------|--3-------------------|----------------------|


  Q    Q    Q        Q     Q    Q       Q    Q    Q    Q
--3--------------|--(3)--------------|--8---------8---------|
-----------------|-------------------|-----------------8----|
--4--------------|-------------------|--5-------------------|
-----------------|---0---------------|----------------------|
-----------------|-------------------|----------------------|
-----------------|-------------------|----------------------|


  Q    Q    Q    Q       Q    Q    Q    Q       Q    Q    Q    Q
--5----5--------------|------------0----0----|--1----0---------0----|
--6---------6----6----|--8----8----1---------|--2---------3---------|
------------7---------|--9-------------------|------------4---------|
----------------------|----------------------|----------------------|
----------------------|----------------------|----------------------|
----------------------|----------------------|----------------------|


  Q    Q    Q    Q       Q    Q    Q    Q       Q       Q    Q    Q
--1----1----0----0----|----------------------|-------|-----------------|
----------------------|--3---------0----3----|--1----|--1--------------|
----------------------|----------------------|-------|-----------------|
--3---------2---------|----------------------|-------|-----------------|
----------------------|--0-------------------|--0----|--0--------------|
----------------------|----------------------|-------|-----------------|


  Q    Q    Q    Q       Q    Q    Q    Q       Q    Q    Q    Q       Q
----------------------|--0----0----1----1----|--3----3----2----5----|--3----|
--1----1----3----3----|----------------------|----------------------|-------|
----------------------|----------------------|----------------------|-------|
----------------------|--2---------3---------|--5---------4---------|--5----|
--3---------5---------|----------------------|----------------------|-------|
----------------------|----------------------|----------------------|-------|


  Q    Q    Q    Q       Q    Q    Q    Q       Q       Q    Q    Q
------------0----0----|--1---------3----2----|--3----|--3--------------|
--3----3--------------|----------------------|-------|-----------------|
----------------------|----------------------|-------|-----------------|
--0-------------------|--3-------------------|--5----|-----------------|
----------------------|----------------------|-------|-----------------|
----------------------|----------------------|-------|-----------------|


  Q    Q    Q    Q       Q    Q     Q       Q    Q    Q    Q
--5---------7----7----|--8---------10----|--7---------8----7----|
--6---------8----8----|--8----------8----|--6-------------------|
----------------------|------------------|----------------------|
----------------------|------------------|----------------------|
----------------------|------------------|----------------------|
----------------------|------------------|----------------------|


  Q    Q    Q       Q    Q    Q    Q       Q    Q    Q    Q       Q
--5---------3----|--3----3---------1----|----------------------|-------|
--4---------3----|----------------------|--3---------0----3----|--1----|
-----------------|--0-------------------|----------------------|-------|
-----------------|----------------------|--5-------------------|-------|
-----------------|----------------------|----------------------|--3----|
-----------------|----------------------|----------------------|-------|


  Q    Q    Q    Q       Q    Q    Q    Q       Q    Q    Q    Q
----------------------|------------0---------|--0----1----3----5----|
------------1----0----|--1----3---------3----|----------------------|
----------------------|----------------------|----------------------|
----------------------|----------------------|----------------------|
----------------------|--3-------------------|--3-------------------|
------------3---------|----------------------|----------------------|


  Q    Q    Q    Q       Q    Q    Q    Q       Q    Q    Q    Q
--3--------------8----|--7--------------5----|--3--------------1----|
----------------------|--0-------------------|----------------------|
----------------------|----------------------|--0-------------------|
--2-------------------|----------------------|----------------------|
----------------------|----------------------|----------------------|
----------------------|----------------------|----------------------|


  Q    Q    Q    Q       Q    Q    Q    Q       Q       Q    Q       Q
--0--------------0----|----------------------|-------|------------|-------||
----------------------|--3---------0----3----|--1----|------------|-------||
----------------------|----------------------|-------|------------|-------||
--2-------------------|----------------------|-------|------------|-------||
----------------------|----------------------|--3----|--0---------|--3----||
----------------------|--3-------------------|-------|------------|-------||


Duration Legend
---------------
W - whole
H - half
Q - quarter
E - 8th
S - 16th
T - 32nd
X - 64th
. - note dotted
|-n-|  - n-tuplets


Tablature Legend
----------------
L - tied note
x - dead note
g - grace note
(n) - ghost note
> - accentuded note
NH - natural harmonic
AH - artificial harmonic
TH - tapped harmonic
SH - semi harmonic
PH - pitch harmonic
h - hammer on
p - pull off
b - bend
br - bendRelease
pb - preBend
pbr - preBendRelease
brb - bendReleaseBend
\n/ - tremolo bar dip
\n - tremolo bar dive
-/n - tremolo bar Release up
/n\ - tremolo bar inverted dip
/n - tremolo bar return
-\n - tremolo bar Release down
S - shift slide
s - legato slide
/ -  slide into from below or out of upwards
\ -  slide into from above or out of downwards
~ - vibrato
W - wide vibrato
tr - trill
TP - tremolo picking
T - tapping
S - slap
P - pop
< - fade in
^ - brush up
v - brush down
Tap to rate this tab
 
# A B C D E F G H I J K L M N O P Q R S T U V W X Y Z