Song name
# A B C D E F G H I J K L M N O P Q R S T U V W X Y Z

Misc Traditional - Men Of Harlech tab

-----------------------------------------------------------------------------
			     Men of Harlech - Welsh Traditional
-----------------------------------------------------------------------------
Tabbed by: Frank Dudeacough

Tuning:Standard

1st verse variation
e|-----------------------------------------------0-------------||
B|-------------0---1-0-------------------------0-----3-0---0---||
G|-0-------0-2---0----2-0----------0-------0-2-----------2---0-||x2
G|---4-2-4-----------------4-2-4-0---4-2-4---------------------||
A|-------------------------------------------------------------||
E|-------------------------------------------------------------||

2nd verse variation
e|---------------------------0-0---------------------------------|
B|--------------3-1-0-1-3-3*-----3-3-1-1-0-0---0-1-0-------------|
G|-2-0---0-2-2*------------------------------2-------2-0---------|
D|-----4-------------------------------------------------4-2-4-0-|
A|---------------------------------------------------------------|
E|---------------------------------------------------------------|

ending
e|---------------0------------|
B|-------------0--------------|
G|-0-------0-2------3-0---0---|
D|---4-2-4--------------2---0-|
A|----------------------------|
E|----------------------------|

If you know the song you should be able to pick out the variations easily
and I'm not welsh (although I have welsh ancestry) i just like this song and the Zulu 
(as one of my welsh ancestors was at Isandlwana)

Here are the lyrics from the film enjoy!!

Men of Harlech, stop your dreaming.
Can't you see their spear points gleaming
See their warrior's pendants streaming
To this battlefield.

Men of Harlech, stand ye steady.
It cannot be ever said ye
For the battle were not ready.
Stand and never yield.

Through the hills surrounding
Let this war cry sounding
Summon all to Cambria's call,
The mighty force surrounding.

Men of Harlech, on to glory!
This shall ever be your story.
Keep these fighting words before ye:
Cambria (Welshmen never) will not yield.
************************************
| *   let ring
| /   slide up
| \   slide down
| h   hammer-on
| p   pull-off
| ~   vibrato
| +   harmonic
| x   Mute note
| b   Bend
| pb  Pre-bend
| br  Bend release
| pbr Pre-bend release
| brb Bend release bend

************************************
Tap to rate this tab
 
# A B C D E F G H I J K L M N O P Q R S T U V W X Y Z