Misc Traditional - Danny Boy tab

My First Tab, so figured i'd do something nice that anyone can play, and lots of people 
hearing! :)

The bits in brackets you play quieter. Or if you want to, you can play it without the 
bits.

Enjoy :)


e-----------|--------------0)---------------|---------(0--------------------|
B-----------|--------1--3-------------------|-------------3--1--------------|
G-----------|----(0----------------2--0-----|-------------------2)----------|
D--------0--|-2--------------0--2--------2--|-0-----------------------2--3--|
A-2--3------|-------------------------------|----3--0--------------3--------|
E-----------|-------------------------------|-------------------------------|


e------0-1-3)----------|------------------------|----------0)---------------|
B---(1-----------------|--------0-3-0-----------|------1-3------------------|
G-0----------2-0-------|---(0-2-------0)--------|---(0------------2-0-------|
D----------------2---2-|-0--------------------0-|-2-----------0-2-----2-----|
A------------------3---|-----------------2-3----|---------------------------|
E----------------------|------------------------|---------------------------|


e-----------------------|---------------------|-----------------------------|
B----------0-1----------|------1)-------------|----------1----------0---1---|
G-------(2-----2)-------|---(0----------------|--------0------0--2------0---|
D-0-------------------0-|-2------3--2--0----0-|----(2-------------------2---|
A---3-0-----------2-3---|-----------------3---|-3----------3)-----------3---|
E-----------------------|---------------------|-----------------------------|


e-------------------|---------------------|---------------------------------|
B-----0--0----------|------------------0--|--1------0--0--------------------|
G----------2--0-----|--0-----------0-2----|--0------------2--0--------------|
D----------------2--|-----2---------------|--2------------------2--0--------|
A-(3)---------------|-------3--3----------|--3--(3)-------------------------|
E-------------------|---------------------|---------------------------------|


e-------------------|-0----------------------|------------------------------|
B-------------------|----------3--3--1-----1-|------------------------------|
G-----------0--0--0-|-------------0-----2----|-0----------------------------|
D-------------------|-------------------3----|----2--------------0----------|
A--(0--2------------|-3----(3)---------------|-3-----3-----2--3-------------|
E---------3)--------|------------------------|------------------------------|


e-----------------------------------|--------------------------------------|
B-----------------------------------|------------------------1)------------|
G-----2---0-------------------------|-----(0-------0---------0)------------|
D--2-----------2---0----------------|-----------2------------2)------------|
A----------------------3----0---2---|--3---------------------3)------------|
E--0---------------3----------------|--------------------------------------|
Tap to rate this tab
 
# A B C D E F G H I J K L M N O P Q R S T U V W X Y Z