Misc Traditional - Yankee Doodle tab

yankee doodle - misc traditional
-------------------------------------------------------------------------------
Tabbed by:metalhead601


Tuning:EADGBe

e|----------------0-------0----------------------0---------------------------|
B|----1---1---3-------1-------3------1---1---3-------1---0-------------------|
G|---------------------------------------------------------------------------|
D|---------------------------------------------------------------------------|
A|---------------------------------------------------------------------------|
E|---------------------------------------------------------------------------|

e|----------------0---1---0--------------------------------------------------|
B|----1---1---3---------------3---1---0-----------0---1---1------------------|
G|----------------------------------------0---2------------------------------|
D|---------------------------------------------------------------------------|
A|---------------------------------------------------------------------------|
E|---------------------------------------------------------------------------|


 i think this is just the intro
Tap to rate this tab
 
# A B C D E F G H I J K L M N O P Q R S T U V W X Y Z