Song name
# A B C D E F G H I J K L M N O P Q R S T U V W X Y Z

Misc Traditional - Scarborough Fair tab

My First tab over here, let me know what you think about it!



    Em	Em        D              Em
    Are you going to Scarborough Fair
    Em      Em        A       B7         
    Parsley sage rosemary and thyme
B      Em    G         G         D
    Remember me to one who lives there
        Em         D          Em  
    She once was a true lover of me

  Em           Em           D            Em
e|--0-----0---|--7---7---7-|------------|--0---------|
B|------------|------------|----6---7-6-|------------|
G|------------|------------|------------|------------|
D|------------|------------|------------|------------|
A|------------|------------|------------|------------|
E|------------|------------|------------|------------|
    Are   you    go -ing to    Scarborough Fair

  Em           Em           A            B7
e|---7-----10-|-12-----10--|---7-----9--|5---7-------|
B|------------|------------|------------|------------|
G|------------|------------|------------|------------|
D|------------|------------|------------|------------|
A|------------|------------|------------|------------|
E|------------|------------|------------|------------|
     Pars -ley  sage   rose -  ma -  ry  and thyme

  B	       Em           G            G   
e|---------12-|-12--12--10-|-7---7---5--|-3----2-----|
B|------------|------------|------------|-----------4|
G|------------|------------|------------|------------|
D|------------|------------|------------|------------|
A|------------|------------|------------|------------|
E|------------|------------|------------|------------|
           Re - mem-ber me   to  one who lives there

  D            Em           D            Em  
e|--0------2--|--3---5-7---|5--3----2---|0-----------|
B|------------|------------|------------|------------|
G|------------|------------|------------|------------|
D|------------|------------|------------|------------|
A|------------|------------|------------|------------|
E|------------|------------|------------|------------|
    She    once  was a true lo-ver  of   me
Tap to rate this tab
 
# A B C D E F G H I J K L M N O P Q R S T U V W X Y Z