Misc Traditional - Cielito Lindo tab

Bueno aqui tienen esta conocida cancion casi un himno mexicano, 
no es mi genero pero aqui la tienen. 
   
            Esta mui Sencilla!! (Open G)

e-5-5-2-4-0--5-5-2-4-0--5-5-2-4-0------4-4-4-2-0------------|
B---------------------------------3-0------------3-3-0-2-3--|
G-----------------------------------------------------------|
D-----------------------------------------------------------|
A-----------------------------------------------------------|
E-----------------------------------------------------------|

e-0-0-0-----------------------------------------------------|
B-------3-2-0-----------------------------------------------|
G-------------2---------------------------------------------|
D-----------------------------------------------------------|
A-----------------------------------------------------------|
E-----------------------------------------------------------|

e-9------------------9-----0-2-2-0-10-10----4-0-2-2-0-------|
B--12-10----12-12-10--10-----------------12-----------------|
G--------11-------------------------------------------------|
D-----------------------------------------------------------|
A-----------------------------------------------------------|
E-----------------------------------------------------------|

e-----------------------------------------------------------|
B-3-2-0-----------------------------------------------------|
G-------2---------------------------------------------------|
D-----------------------------------------------------------|
A-----------------------------------------------------------|
E-----------------------------------------------------------|

G            D7     G           D7
De la Sierra Morena, cielito lindo,
G            D7
vienen bajando
un par de ojitos negros, cielito lindo,
               G
de, contrabando.

G            D7      G          D7
Ese lunar que tienes, cielito lindo,
G           D7
junto a la boca,
no se lo des a nadie, cielito lindo,
               G
que a mí me toca.


Coro (Se toca dos veces)

G            G7 C
Ay, Ay, Ay, Ay,
D7              G
Canta y no llores
                        D7
Porque cantando se alegran,
                          G
Cielito lindo los corazones.

G                D7    G           D7
Una flecha en el  aire, cielito lindo,
G          D7
lanzó Cupido,
me la tiró jugando, cielito lindo,
                  G
y a mi me ha herido.

G            D7     G            D7
Pájaro que abandona, cielito lindo,
G            D7
su primer nido,
si lo encuentra ocupado, cielito lindo,
             G
bien merecido.

Coro 2x

G         D7        G            D7
Todas las ilusiones, cielito lindo,
G                D7
que el amor fragua,

son como las espumas, cielito lindo,
                G
que forma el agua.


Coro (Una sola vez)

G            G7 C 
Ay, Ay, Ay, Ay,
D7              G
Canta y no llores
                        D7
Porque cantando se alegran,
                          G            D7        G
cielito lindo los corazones


                             FIN
Tap to rate this tab
 
# A B C D E F G H I J K L M N O P Q R S T U V W X Y Z