Misc Traditional - Italy National Anthem tab

-------------------------------------------------------------------------------
			     Italy National Anthem
-------------------------------------------------------------------------------
Tabbed by: Petkovski
Email:chill.bt@live.com

Tuning:Standard

|----|-----------1--|-1-3-1--(1)--1--|-5--3-1-------|------------------|
|-3--|-3--4-3-------|----------------|-----------4--|-6-4--3--(3)--3---|
|----|--------------|----------------|--------------|------------------|
|----|--------------|----------------|--------------|------------------|
|----|--------------|----------------|--------------|------------------|
|----|--------------|----------------|--------------|------------------|


|-----------1--|-1-3--1----1--|-5-3--1--(1)-----|--------------6--|
|-3-4--3-------|--------------|--------------4--|-6-4--3--(3)-----|
|--------------|--------------|-----------------|-----------------|
|--------------|--------------|-----------------|-----------------|
|--------------|--------------|-----------------|-----------------|
|--------------|--------------|-----------------|-----------------|


|-5-------------|--------------|--------------------|----------------|
|----7----8--10-|-8--6------8--|-7--8-10--(10)------|-11----13-------|
|---------------|------7-------|--------------------|----------------|
|---------------|--------------|----------------12--|-----------12---|
|---------------|--------------|--------------------|----------------|
|---------------|--------------|--------------------|----------------|


|-----------------|------------------|-5--3-1--(1)-8----8-|-----6-6-6---6-6-|
|-----------------|----8--6--(6)--6--|---------------10---|-6---------------|
|-------------10--|-10---------------|--------------------|-----------------|
|-12-13-12--------|------------------|--------------------|-----------------|
|-----------------|------------------|--------------------|-----------------|
|-----------------|------------------|--------------------|-----------------|


|-6---6-6-7--8--9--10--|-11------------------|--------------------|
|----------------------|---------------------|--------8-8--8--7---|
|----------------------|---------------------|-10--8--------------|
|----------------------|-------13-13--13--12-|--------------------|
|----------------------|---------------------|--------------------|
|----------------------|---------------------|--------------------|


|-----------------|---------4--3----|-----------------|
|-9--8--8-8--7-6--|-4--4-6--------4-|-6---------------|
|-----------------|-----------------|----7-7--7--7-6--|
|-----------------|-----------------|-----------------|
|-----------------|-----------------|-----------------|
|-----------------|-----------------|-----------------|


|------1--1--1--0-|-3--1--10-10--10-8--|-6--6-4--3--3-1--|
|-4--3------------|--------------------|-----------------|
|-----------------|--------------------|-----------------|
|-----------------|--------------------|-----------------|
|-----------------|--------------------|-----------------|
|-----------------|--------------------|-----------------|


|-----------------|-1-----------------|-----------------|
|-4----4-4--4--3--|----4--4--4--3--1--|-3----4--4--4-3--|
|-----------------|-------------------|----4------------|
|-----------------|-------------------|-----------------|
|-----------------|-------------------|-----------------|
|-----------------|-------------------|-----------------|


|-1----------------|-------------------|-1----3--3--2-3--|
|----4--4-4--3--1--|-0--(0)--4-4--4--3-|----4------------|
|------------------|-------------------|-----------------|
|------------------|-------------------|-----------------|
|------------------|-------------------|-----------------|
|------------------|-------------------|-----------------|


|-6--4--4--4-6--8-10--|-11-------------------|------------------*|
|---------------------|-----11--11--9--9--9--|-11--11--(11)-----*|
|---------------------|----------------------|-12--12--(12)-----*|
|---------------------|----------------------|------------------*|
|---------------------|----------------------|------------------*|
|---------------------|----------------------|------------------*|
Tap to rate this tab
 
# A B C D E F G H I J K L M N O P Q R S T U V W X Y Z