Song name
# A B C D E F G H I J K L M N O P Q R S T U V W X Y Z

Misc Traditional - United Kingdom National Anthem tab

-------------------------------------------------------------------------------
			     United Kingdom National Anthem
-------------------------------------------------------------------------------
Tabbed by: Petkovski
Email:chill.bt@live.com

Tuning:Standard
/*I think it should look something like this*/


|-3--3--5--|-----------|-------------|
|----------|-7---8-10--|-12--12--13--|
|----------|-----------|-------------|
|----------|-----------|-------------|
|----------|-----------|-------------|
|----------|-----------|-------------|

|------------|-----------|------------------|
|-12---10-8--|-10--8--7--|--8--8-10-12-13---|
|------------|-----------|-12---------------|
|------------|-----------|------------------|
|------------|-----------|------------------|
|------------|-----------|------------------|


|-------------|-------------|-------------|
|-15--15--15--|-15---13-12--|-13--13--13--|
|-------------|-------------|-------------|
|-------------|-------------|-------------|
|-------------|-------------|-------------|
|-------------|-------------|-------------|


|-------------|----------------|-7---8-10--|
|-13---12-10--|-12--13-12-10-8-|-----------|
|-------------|----------------|-----------|
|-------------|----------------|-----------|
|-------------|----------------|-----------|
|-------------|----------------|-----------|


|-12------------|------------*|
|----13-12--10--|-8----(8)---*|
|---------------|------------*|
|---------------|------------*|
|---------------|------------*|
|---------------|------------*|
Tap to rate this tab
 
# A B C D E F G H I J K L M N O P Q R S T U V W X Y Z