Song name
# A B C D E F G H I J K L M N O P Q R S T U V W X Y Z

Misc Traditional - Yugoslavia National Anthems tab

-------------------------------------------------------------------------------
			     Yugoslavia National Anthem
-------------------------------------------------------------------------------
Tabbed by: Petkovski(Computer Generated Tab)
Email:chill.bt@live.com

Tuning: Standard


|---1-5--8---8--|----8--5-8-6-5-3-3-|-8-----6----5-----|-------1-5--8---8---|
|-----6-10--10--|---10--3---3-6-6-6-|-8-------1--6-----|---------6-10--10---|
|-------10--10--|----9------0---3-7-|-9---9--------5-5-|-5--5------10--10---|
|---3-----------|-3-----4-----7-----|----10---3--------|-------3------------|
|---------------|-------------0-----|-----7------------|--------------------|
|---1-----------|-1-----2---3---6---|-----0---1--------|-------1------------|


|----8-5-8-3-5------|-8-----6----5-----|
|---10-3---3-6-8--8-|-8-------1--6-----|
|----9-----0---7-10-|-----9--------5-5-|
|-3----4-----7-8-12-|----10---3--------|
|------------0------|-----7------------|
|-1----2---3---6----|-----0---1--------|


|-------0-3-3---6---|---5-5-----8-----8-6--|
|---------5-5---8---|-1-6-6----10----10-8--|
|-5--5----5-5---5---|---5-5-------------5--|
|-------------------|-3-----3--10-3--10----|
|-------------3-7-3-|-----------0-----7----|
|---------------0---|-1-----1-----1---0----|


|-6---10-0-1---8-----|-------5-13-13-12-------|
|-8---11------10-1-1-|-1----------11----15-13-|
|-5---12-------------|-2--5--------0----14----|
|---5------3-----3---|-------3----15----15----|
|--------------------|-0--3--------------0----|
|---3--0---1-----1---|-------1-----3----17----|


|-10-10-5-8-6-5-3-3-|-8-----6----5-----|
|--8----3---3-6-6-6-|-8----------6-1-1-|
|--7------------3-7-|-----9------------|
|--8----4-----7-----|----10---3----3---|
|-------------0-----|-----7------------|
|--6----2---3---6---|-----0---1----1---|


|-------5-13-13-12--------|-10-10-5-8-3-5-3-3-|
|-1----------11----15-13--|--8----3---3-6-6-6-|
|-2--5--------0----14-----|--7------------3-7-|
|-------3----15----15-----|--8----4-----7-----|
|-0--3--------------0-----|-------------0-----|
|-------1-----3----17-----|--6----2---3---6---|


|-8--0-------1--|-(1)--(1)-------*|
|-8-------8--1--|-(1)--(1)-------*|
|-9-----9-9--2--|-(2)--(2)-------*|
|-------8-8--3--|-(3)--(3)-------*|
|------10-------|----------------*|
|------------1--|-(1)--(1)-------*|
Tap to rate this tab
 
# A B C D E F G H I J K L M N O P Q R S T U V W X Y Z