Song name
# A B C D E F G H I J K L M N O P Q R S T U V W X Y Z

Misc Traditional - Irish Washer Woman tab

I play this song different then it is tabbed by others so I posted the whole song, main 
is this version includes the right ending of the intro which is missing in the other tabs:)

|----------------------------------------------0-----------|
|3-1-0-----------0---0-3-1-0-1-----------1---1-------------|
|------0-0---0-0---0-----------2-2---2-2---2---------------|
|----------0-----------------------0-----------------------|
|----------------------------------------------------------|
|----------------------------------------------------------|

|----------------------------------------------------------|
|3-1-0-----------0---0-3-1-0-1-0-1---3-1-0-----------------|
|------0-0---0-0---0---------------2-------0-0-0-----------|
|----------0-----------------------------------------------|
|----------------------------------------------------------|
|----------------------------------------------------------|

|10-8-7-----------7---7-10-8-7-8---------------8----8-10s12|
|-------8-8---8-8---8------------10-10---10-10---10--------|
|-----------7--------------------------7-------------------|
|----------------------------------------------------------|
|----------------------------------------------------------|
|----------------------------------------------------------|

|10-8-7---------7---7-10-8-7-8-7-8----10-8-7---------------|
|-------8-8---8---8----------------10--------8-8-8---------|
|-----------7----------------------------------------------|
|----------------------------------------------------------|
|----------------------------------------------------------|
|----------------------------------------------------------|

|-----7----------7---7-7-----------------------------------|
|8-10--8-8---8-8---8-----10-8-10-7-7---7-7-10-7-10-10-8-7--|
|----------7-------------------------7---------------------|
|----------------------------------------------------------|
|----------------------------------------------------------|
|----------------------------------------------------------|

Play first time:
|0-3-3---3-3---3-3---3-3-----------------------------------|
|------3-----1-----0-----1-0-1---3-1-0---------------------|
|------------------------------2-------0-0-0---------------|
|----------------------------------------------------------|
|----------------------------------------------------------|
|----------------------------------------------------------|

Play second time:
|--------7-------------------------------------------------|
|---7-8----10-8---7-8---------------------------7-8--------|
|9--------------9-----7---------------------7-9------------|
|-----------------------10-9-10-9-10-7-9-10----------------|
|----------------------------------------------------------|
|----------------------------------------------------------|
Tap to rate this tab
 
# A B C D E F G H I J K L M N O P Q R S T U V W X Y Z