Misc Traditional - Russian National Anthem tab

tab by-Pyrah666

[-------------------------------------------------------------------------|
[------14~~~--------------------------------------------------------------|
[------------17--15--17--------------15~~---------------------------------|
[----------------------15-15---------------18-16-18-----------------------|
[--16-----------------------------------------------16-16-----------------|
[-------------------------------------------------------------------------|

[--------------------------------------------------------------------------|
[--------------------------------------------------14-16-------------------|
[-----------------------------13--15--17--15--17---------------------------|
[-----13~~15--16p15h16-----------------------------------------------------|
[-----------(slow hammer)--------------------------------------------------|
[--------------------------------------------------------------------------|


[--------------------------------------------------------------------------|
[-----18-18-16-14-16------------------14--13--11--13-----------------------|
[----------------------17--17--------------------------10--10--------------|
[--------------------------------------------------------------------------|
[--------------------------------------------------------------------------|
[--------------------------------------------------------------------------|


[--------------------------------------------------------------------------|
[-----14--13--11--13-14-----16-------18-16-14-16~~~~~~~~~14-14-------------|
[--------------------------------------------------------------------------|
[--------------------------------------------------------------------------|
[--------------------------------------------------------------------------|
[--------------------------------------------------------------------------|

Cheers its my 1sttab if theirs any probs email me on dgs934@live.co.uk
Tap to rate this tab
 
# A B C D E F G H I J K L M N O P Q R S T U V W X Y Z