Guitaretab - guitar tabs
Song name
# A B C D E F G H I J K L M N O P Q R S T U V W X Y Z

Misc Traditional - Ghost Rider tab

Well this is a good song from Vapor Trails and it doesn't look like anyone put it up yet 
I tried. PLEEZ RATE

Intro/verse gtr.1(clean, no treble)
e|---------------------------------------|
B|---------------------------------------|
G|---------------------------------------|
D|-5h7-7-7p5-5-5h7-7-7p5-5-2-2h5-0-0-0h3-|
A|-5---5-5---5-5---5-5---5-3-3---1-1-1---|
E|---------------------------------------|

Intro/verse gtr.2(slightly distorted, but clear lead tone)
e|----10----7~~~---------10----8--12-------|
B|-10----10-----10----10----10-------8--10-|
G|-----------------------------------------|
D|-----------------0-----------------------|
A|-----------------------------------------|
E|-----------------------------------------|
[ Tab from: http://www.guitaretab.com/m/misc-traditional/25803.html ]
Verse gtr.3
e|----------------------------------------|
B|----------------------------------------|
G|-----2h5p2-------2h5p2------------------|
D|-5h7-------5-5h7-------5--2-2-2/0-0-0h3-|
A|-5---------5-5---------5--3-3-3/1-1-1---|
E|----------------------------------------|

2 n d Verse
e|------------------------------------|
B|-3-3-3-3-3-1-0-1-3---------1------3-|
G|-2-2-2-2-2-2-2-2-2-2-----0------3---|
D|-0-0-0-0-0-0-0-0-0-0---2------3-----|
A|-------------------0-3-------1------|
E|------------------------------------|
*after this the tab gets a little shaky
Chorus gtr.3
e|---------------------|
B|-3-3-3-3-3-3-0-0-0-0-|
G|-2-2-2-2-2-2-22-2-2-|
D|-0-0-0-0-0-0-0-0-0-0-|
A|---------------------|
E|---------------------|

Post chorus gtr.3
e|-------------------|
B|----0------0-----0-|
G|---0------0-----0--|
D|-------------------|
A|-7/----5/-----7----|
E|-------------------|

Bridge gtr.3
e|-------------------|
B|-------------------|
G|-------------------|
D|-12-12-12/15-15-15-|
A|-10-10-10/13-13-13-|
E|-------------------|

Bye bye
Related for Ghost Rider tab