Guitaretab - guitar tabs
Song name
# A B C D E F G H I J K L M N O P Q R S T U V W X Y Z

Misc Traditional - Den Blomstertid Nu Kommer tab

* Psalm 199 : Den blomstertid nu kommer 
  -------------------------------------


E |----0--|--0-----------|------------0--|--3--3--1----1--|--0-------||
B |----1--|--0--3--1--0--|--1-----1---1--|--3--1--1----0--|--1-------||
G |----0--|--0--2--0--0--|--0-----0---2--|--0--0----2--0--|--0-------||
D |-------|-----3--2--3--|-----3--2------|--------0-------|----------||
A |----3--|--------------|--0-----3---0--|--2--0----------|--3-------||
E |-------|--0--1--3-----|---------------|-------------3--|----------||

E |----3--|--5--3--1--0--|------------0--|--1--1--0--0----|----------|
B |----1--|-----1--1--1--|--3-----3---1--|--1--3--1--1----|--3----3--|
G |----0--|--2--0--2--0--|--0---------0--|--2--0--0--0----|--0----0--|
D |----2--|--3--2--0-----|--0------------|----------------|----------|
A |-------|-----------3--|--2--0------3--|--0--2--3-------|-------2--|
E |-------|--------------|--------3------|-----------0-1--|--3-------|

E |--0-----------|--------------|----------------|-------------------||
B |-----3--1--0--|--------------|-----1----1--0--|-----1-------------||
G |--0--4--2--0--|--2-----2--0--|--2-------0--0--|----2------0-------||
D |--------2--2--|-----3--2-----|-----3-2--0--3--|---3-------2-------||
A |--3-----0-----|--------0--2--|----------------|--3--------3-------||
E |-----3-----0--|--1-----------|--1-------3-----|-------------------||

[ Tab from: http://www.guitaretab.com/m/misc-traditional/25804.html ]
Related for Den Blomstertid Nu Kommer tab
Den Blomstertid Nu Kommer chords by Misc Traditional