Song name
# A B C D E F G H I J K L M N O P Q R S T U V W X Y Z

Misc Traditional - Aura Lee tab

----------------------------------------------------------------------------
			     aura lee - Misc traditional
----------------------------------------------------------------------------
Tabbed by:John
Email:you dont need my email.

Key
-Halfnote= A "b" above the note.
-Wholenote= A "O" above the note.
-all unmarked notes are quarter notes.



              b        b b             b       O     b     b      
e|-------|-----|------|---|--------|---|------|-|0-0-0|0-0-0-|0------|
B|--1-0-1|3---3|1-0-0-|1--|--1-0-1-|3-3|1-0-0-|1|-----|------|--3-1-3|
G|0------|--2--|---2--|--0|0-------|-2-|---2--|-|-----|------|-------|
D|-------|-----|------|---|--------|---|------|-|-----|------|-------|
A|-------|-----|------|---|--------|---|------|-|-----|------|-------|
E|-------|-----|------|---|--------|---|------|-|-----|------|-------|
  O              b           O      
e|0|0-0-1-0|------|---------|-|
B|-|-------|-3---3|-1-0-3-0-|1|
G|-|-------|---2--|---------|-|
D|-|-------|------|---------|-|
A|-|-------|------|---------|-|
E|-|-------|------|---------|-|

Tap to rate this tab
# A B C D E F G H I J K L M N O P Q R S T U V W X Y Z