Song name
# A B C D E F G H I J K L M N O P Q R S T U V W X Y Z

Misc Traditional - Loch Lomond tab

 
Standard tuning:
^ : hammer on
* : pull off

|-----------------------------------------------------------------|
|----------------- --0------------------0-------------------------|
|---------0---0-2^---0-----2-0*---2-------2-0*----------0----0----|
|--0----0------------2------------0------------0---0----0------0--|
|--------------------3-------------------------0--0---------------|
|-----2-3^------------------------2-------------------2-3^--------|

|------------------0--0--------------0-0--------------------------|
|--------0-3------1-----3---3--0-3---1---3--0-0--3---1-0*---------|
|---0------------0----------0--------0------0--------0----2-0*----|
|---0-----------2-----------0--------2------0--------2----------2-|
|-------------3-------------2--------3------2--------3----------2-|
|-2-3^----------------------3---------------3---------------------|


|-----------------------------------------------------------------|
|------------0-3---1--3-0*----------------------------------------|
|---------0--------0--------2--2-0*--0----------------------------|
|--0-1----0--------2--------0--------0----------------------------|
|---------2--------3----------------------------------------------|
|---------3-----------------2--------3----------------------------|

I hope ive tabbed this ok,play around with the plucking of the chords for a better effect!:)
Tap to rate this tab
 
# A B C D E F G H I J K L M N O P Q R S T U V W X Y Z