Song name
# A B C D E F G H I J K L M N O P Q R S T U V W X Y Z

Misc Traditional - Chinese National Anthem Rise Of The Volunteer tab

Have fun/

  E. S S S S S   E E E E   E S S S S S S
|--------------|---------|---------------|
|--------------|-1-------|---------------|
|-0--0-3---3---|-----3---|-0-----3-3---3-|
|--------------|---------|-----1---------|
|--------------|---------|---------------|
|--------------|---------|---------------|


  Q  E S S   S S S S S S S S   Q  E S S
|----------|-----------------|----------|
|----------|-----------------|----------|
|-0--------|-----------------|----------|
|----1-----|-----------------|----------|
|--------1-|-1-1---1-1-1---1-|------1---|
|----------|-----------------|----------|


  Q  +S  S S S   S E S E S S   E E Q    E S S E S S   E E E E   S E S S S S S
|--------------|-------------|--------|-------------|---------|----------------|
|--------------|-------------|--------|-------------|---------|----------------|
|--------------|-------------|--------|---0-------0-|-3---3---|-0---0-----0----|
|-1--(1)---1---|-1---1-----0-|-1---1--|-------1-3---|---------|-------1--------|
|--------------|-------1-3---|--------|-------------|---------|----------------|
|--------------|-------------|--------|-------------|---------|----------------|


  E S S E E   Q  Q    E E E E   E E E E   S S E E S S   S S S S E E   Q.   E
|-----------|-------|---------|---------|-------------|-------------|--------|
|-----------|-------|-1-------|---------|-------------|-------------|--------|
|-3---0-----|-------|-----3---|-----0---|-3---0---3---|-0-----0-----|-0------|
|-------3---|-3-----|---------|-3-------|-------------|-----3---1---|--------|
|-----------|-------|---------|---------|-------------|-------------|--------|
|-----------|-------|---------|---------|-------------|-------------|--------|


  E S S S S S S   S E S S S S S   S S S S Q    Q  E S S   Q  E S S   Q  E S S
|---------------|---------------|------------|----------|----------|-----------|
|---------------|---------------|------------|----------|----------|-----------|
|---------------|-0---0-3---3---|------------|----------|----------|-0----0----|
|-------1---1---|---------------|-3---3-3----|-3--------|-1----1---|-----------|
|-1-3-----------|---------------|---------3--|------1---|----------|-----------|
|---------------|---------------|------------|----------|----------|-----------|


  Q.   E   E S S S S S S   Q  E E   E S S S S S S   Q  S S E   Q  Q
|--------|---------------|--------|---------------|----------|--------|
|--------|---------------|-1------|---------------|----------|--------|
|-3------|-----0-3---3---|----3---|-0-----3-3---3-|-0--------|--------|
|--------|-1-------------|--------|-----1---------|----1-----|----1---|
|--------|---------------|--------|---------------|----------|-1------|
|--------|---------------|--------|---------------|----------|--------|


  E S S S S S S   E E E E   E E E E   E E E E   E E E E   Q  +S  S E
|---------------|---------|---------|---------|---------|------------*|
|---------------|---------|---------|---------|---------|------------*|
|-0-----3-3---3-|-0-------|---------|---------|---------|------------*|
|-----1---------|-----1---|-----1---|-----1---|-----1---|-1--(1)-----*|
|---------------|---------|-1-------|-1-------|-1-------|------------*|
|---------------|---------|---------|---------|---------|------------*|

Tap to rate this tab
 
# A B C D E F G H I J K L M N O P Q R S T U V W X Y Z