Song name
# A B C D E F G H I J K L M N O P Q R S T U V W X Y Z

Misc Traditional - The British Grenadiers tab

-------------------------------------------------------------------------------
			     THE BRITISH GRENADIERS - Traditional
-------------------------------------------------------------------------------

Listen to the song for timing (I since this has been converted for guitar you'll have to 
listen to a traditional version

Tabbed by: k33nbl4d3
Email: k33nbl4d3@hotmail.co.uk


Tuning: Standard

e|---0---0-2-4-2-4-5-7-0-4-2-0---0|
B|-0---0-----------------------4--|
G|--------------------------------|
D|--------------------------------|
A|--------------------------------|
E|--------------------------------|


e|---0---0-2-4-2-4-5-7-0-4-2-0---0|
B|-0---0-----------------------4--|
G|--------------------------------|
D|--------------------------------|
A|--------------------------------|
E|--------------------------------|

*
e|-4-5-7-9-7-5-4-5-7-0-9-9-7-5-4-2-0|
B|----------------------------------|
G|----------------------------------|
D|----------------------------------|
A|----------------------------------|
E|----------------------------------|


e|---0---0-2-4-2-4-5-7-0-4-2-0---0|
B|-0---0-----------------------4--|
G|--------------------------------|
D|--------------------------------|
A|--------------------------------|
E|--------------------------------|

Repeat all through the entire piece

*Is alternatively played as:
e|-4-5-7-9-7-5-4-5-7-0-0-2-4-5-4-2|
B|--------------------------------|
G|--------------------------------|
D|--------------------------------|
A|--------------------------------|
E|--------------------------------|
Tap to rate this tab
 
# A B C D E F G H I J K L M N O P Q R S T U V W X Y Z