Song name
# A B C D E F G H I J K L M N O P Q R S T U V W X Y Z

Misc Traditional - La Cucaracha tab

Very Simple, just

E|--------------2---------------2-----------------------|
B|-----------3---------------3------3--3--2--0----------|
G|--2--2--2---------2--2--2---------------------2-------|
D|------------------------------------------------------|
A|------------------------------------------------------|
E|------------------------------------------------------|

E|--------------0---------------0-----------------------|
B|-----------2---------------2------2--2--0--2--3-------|
G|--2--2--2---------2--2--2-----------------------------|
D|------------------------------------------------------|
A|------------------------------------------------------|
E|------------------------------------------------------|

Repeat as long as you want :D
Tap to rate this tab
 
# A B C D E F G H I J K L M N O P Q R S T U V W X Y Z