Song name
# A B C D E F G H I J K L M N O P Q R S T U V W X Y Z

Misc Traditional - Happy Birthday tab

Highlighted       Show chord diagrams
HAPPY BIRTHDAY
Capo 2nd Fret

 C                 G
Happy Birthday to You

 G                 C
Happy Birthday to You

 C                  F   F7
Happy Birthday Dear (name)

 C             G  C
Happy Birthday to You.



Tab:
E |-----------------------------|
B |--1----1-1----1----1----1----|
G |--0----0-0----0----0----0----|
D |--2----2-2----2----2----0----|
A |--3----3-3----3----3----2----|
E |------------------------3----|
   Happy  Birthday    to   You

E |-----------------------------|
B |--1----1-1----1----1----1----|
G |--0----0-0----0----0----0----|
D |--0----0-0----0----0----2----|
A |--2----2-2----2----2----3----|
E |--3----3-3----3----3---------|
   Happy  Birthday    to   You

E |-------3----0----0-----------|
B |--1-1--1----1----3-----------|
G |--0-0--0----0----0----2----2-|
D |--2-2-----------------3----1-|
A |--3-3-----------------3----3-|
E |----------------------1----1-|
   Happy  Birthday  Dear (name)

E |-----------------------------|
B |-------1----1----3----1------|
G |-------0----0----0----0------|
D |-------2----2----0----2------|
A |-------3----3----2----3------|
E |-----------------3-----------|
   Happy  Birthday  to   You.






Somthing like that...
Tap to rate this tab
# A B C D E F G H I J K L M N O P Q R S T U V W X Y Z