Song name
# A B C D E F G H I J K L M N O P Q R S T U V W X Y Z

Misc Traditional - Greensleeves tab

-------------------------------------------------------------------------------
			                             GREENSLEEVES
-------------------------------------------------------------------------------
Tabbed by: into44
Tuning: EADGBe

e|-----------------------0---------1-0----------------------------------------|
B|-----1-----------3-----1--------------3----------0------------------0-------|
G|--2--------2-----------0----0---------0-----0---------0-----0----2----------|
D|--------2-----2-----0--2--2---2-------0--0----0-------2--2----2-------------|
A|-----0-----------2-----3----------------------------------------------------|
E|---------------------------------------3------------2--0--------------------|

e|----------------------------------------------------------------|
B|-1--------------------------------0-----------------------------|
G|-2----2---2----2-----2-----1--2--------1-----1-----------2------|
D|-2--2---2---2-----0-----0-----------2-----2------2~~~-----------|
A|-0--------------------------------------------------------------|
E| ---------------1------------------0-------------.-0~~~---------|

e|-----------------------0---------1-0----------------------------------------|
B|-----1-----------3-----1--------------3----------0------------------0-------|
G|--2--------2-----------0----0---------0-----0---------0-----0----2----------|
D|--------2-----2-----0--2--2---2-------0--0----0-------2--2----2-------------|
A|-----0-----------2-----3----------------------------------------------------|
E|---------------------------------------3------------2--0--------------------|

e|-----------------------------------------------------|
B|-1--------0------------------------------------------|
G|-------2----2--1h2p1-----1----2------2---------------|
D|----2-----------------4----------------2-------------|
A|-0-----------------------------0----------------0----|
E|----------------0------------------------------------|

e|-3-----------------3---------2--0------------------------------------------|
B |-1--------1--------1---------------3-----------0----------------------0---|
G|-0-----0----0------0-----0---------0-----0-------------0-----0-----2-------|
D|-2--2----------2---2--2------------0--0-----0----------2--2-----2----------|
A|-3-----------------3-------------------------------------------------------|
E|------------------------------------3---------------2---0------------------|

e|--------------------------------------------------------------|
B|-1--------------------------------0---------------------------|
G|-2----2---2----2-----2-----1--2--------1-----1----------------|
D|-2--2---2---2-----0-----0- ----------2-----2------2~~~~~------|
A|-0------------------------------------------------------------|
E| ---------------1------------------0---------------0~~~~~-----|

e|-3-----------------3---------2--0------------------------------------------|
B |-1--------1--------1---------------3-----------0----------------------0---|
G|-0-----0----0------0-----0---------0-----0-------------0-----0-----2-------|
D|-2--2----------2---2--2------------0--0-----0----------2--2-----2----------|
A|-3-----------------3-------------------------------------------------------|
E|------------------------------------3---------------2---0------------------|

e|-------------------------------------|
B|-1--------0--------------------------|
G|-------------2--1h2p1-----1----2-----|
D|----------------------4--------------|
A|-0-----------------------------0-----|
E|----------------0--------------------|

************************************

| /   slide up
| \   slide down
| h   hammer-on
| p   pull-off
| ~   vibrato
| +   harmonic
| x   Mute note
| b   Bend
| pb  Pre-bend
| br  Bend release
| pbr Pre-bend release
| brb Bend release bend

************************************
Tap to rate this tab
# A B C D E F G H I J K L M N O P Q R S T U V W X Y Z