Song name
# A B C D E F G H I J K L M N O P Q R S T U V W X Y Z

Misc Traditional - When The Saints Go Marching In tab

                  When the Saints go Marching In

This tab is really simple. Most of this tab you don't have to worry about note lengths 
because this is mainly for any style. this goes with the chords E,B,A.


Freely

e|---------|---------|--------------|--------------|
B|---------|---------|--------------|--------------|
G|---------|---------|--------------|--------------|
D|----6-7-9|----6-7-9|---6-7-9-6-6-9|---6-7-9-6-6--|
A|---7-----|--7------|--7-------7---|--7-------7--9|
E|---------|---------|--------------|--------------|

  E E E E Q E E E E Q Freely
e|---------|---------|-------------|
B|---------|---------|-------------|
G|---------|---------|-------------|
D|---------|9-9-9-9-7|-6-7-9-6-6---|
A|9-9-9-9-7|---------|7-------7-9-7|
E|---------|---------|-------------|
Tap to rate this tab
# A B C D E F G H I J K L M N O P Q R S T U V W X Y Z