Song name
# A B C D E F G H I J K L M N O P Q R S T U V W X Y Z

Misc Traditional - Dove Son Quei Fieri Occhi tab

-------------------------------------------------------------------------------
                     Dove son Quei Fieri Occhi?
-------------------------------------------------------------------------------



Standard

e|-0-------0---0----0-------5---7----4---------------|
B|-1-------1--------0---1------------5---------------|
G|-2-------2--------1---2---5---7----4---------------|
D|--------------------------3------------------------|
A|-----------------------------------7---------------|
E|-------------------------------------------0-------|



                         *hold note
e|-0-------0---2----3-------1--------0-------0-------|
B|-1-------1--------3---1=======0----1-------1-------|
G|-2-------2--------0----------------0-------0-------|
D|------------------------2-0------------------------|
A|-----------------------------------3-------3-------|
E|---------------------------------------------------|




e|------------------0------------------------------------------------|
B|-3---1---3--------1---1---3--------0-------0--------2-------1--1-3-|
G|-4---2---0--------0---2---2--------1---2---2-----1--2--------------|
D|-5--------------------3---0--------2---3---2--------2--------------|
A|------------------3---------------------------------0--------------|
E|-------------3---------------------------------0-------------------|





e|-0------------------------1----------------0-----------------------|
B|-1----------------3---3-5-3--------1-0-1-3-1--------0---0-1-3----1-|
G|-0-------0---0-2--4----------------2----------------0-2-----4--2---|
D|-------0-2--------5-------0---0-2--3-------------0--2-------0------|
A|-3---3-------------------------------------3-2-3-------------------|
E|-------------------------------------------------------------------|




e|---------0------------------------
B|-0-------0--------2---------------
G|-1---2---2-----1--2---------------
D|-2---3---2--------2---------------
A|------------------0---------------
E|-------------0--------------------
Tap to rate this tab
 
# A B C D E F G H I J K L M N O P Q R S T U V W X Y Z