Song name
# A B C D E F G H I J K L M N O P Q R S T U V W X Y Z

Misc Traditional - Oh Canada tab

This is Oh Canada, Hope you enjoy!!! :)
Hints:
/= slid
h= hammer on
E|----------------------------------------------------------------------|
A|----------------------------------------------------------------------|
D|----------------------------------------------------------------------|
G|--------9-9/11--13-14----11-11/13-15-16----------------11-13-14-13-11-|
B|9-12-12---------------14----------------16-16-14-14-12----------------|
E|----------------------------------------------------------------------|

E|------------------------------------------------------------------------|
A|------------------------------------------------------------------------|
D|---------------------16-------------------------------16----------------|
G|13-14-16-14-13-13h16----16-------16----------13-18-18-------------------|
B|---------------------------14h16----16-14-12-------------12-12-13-13-14-|
E|------------------------------------------------------------------------|

E|-------------------------------|
A|-------------------------------|
D|-------------------------------|HOPE  YOU
G|13-14-11-16-----------ENJOYED--|
B|------------16-17--------------|
E|-------------------------------|

Thank you for playing, by the way,you'll have to litsen to the song and get the timing, 
if you have anything to say emial me on hotmail, my email address is nephewx2@hotmail.com
Tap to rate this tab
# A B C D E F G H I J K L M N O P Q R S T U V W X Y Z