Song name
# A B C D E F G H I J K L M N O P Q R S T U V W X Y Z

Misc Traditional - El Condor Pasa tab

-------------------------------------------------------------------------------
                         El Condor Pasa - Traditional
-------------------------------------------------------------------------------

e|-----------------------------------0---------------------------------------|
B|--------------------0-----3-3-0------3-0----0------------------------------|
G|------------0---0-2---------------------------2-0------------0-------------|
D|----2-1-2-4---4-----------------------------------------2-------2----------|
A|--2------------------------------------------------------------------------|
E|---------------------------------------------------------------------------|

e|-----------------------------------0---------------------------------------|
B|--------------------0-----3-3-0------3-0----0------------------------------|
G|------------0---0-2---------------------------2-0------------0-------------|
D|----2-1-2-4---4-----------------------------------------2-------2----------|
A|--2------------------------------------------------------------------------|
E|---------------------------------------------------------------------------|

e|-----0----0---0---0----3-0---------0---------------------------------------|
B|--0-----4---4---4-----------3----3---3-0-----------------------------------|
G|---------------------------------------------------------------------------|
D|---------------------------------------------------------------------------|
A|---------------------------------------------------------------------------|
E|---------------------------------------------------------------------------|

e|-----0----0---0---0----3-0---------0---------------------------------------|
B|--------4---4---4-----------3----3---3-0----0------------------------------|
G|--0-------------------------------------------2--0-------------------------|
D|-----------------------------------------------------2---------------------|
A|---------------------------------------------------------------------------|
E|---------------------------------------------------------------------------|

************************************

| /   slide up
| \   slide down
| h   hammer-on
| p   pull-off
| ~   vibrato
| +   harmonic
| x   Mute note
| b   Bend
| pb  Pre-bend
| br  Bend release
| pbr Pre-bend release
| brb Bend release bend

************************************
Tap to rate this tab
 
# A B C D E F G H I J K L M N O P Q R S T U V W X Y Z