Song name
# A B C D E F G H I J K L M N O P Q R S T U V W X Y Z

Misc Traditional - French National Anthem tab

|-------------------------------------|
|-------------------------------------|
|-------------7---4----4------5-------|
|-----5-5-7-7-------5----5------7-4-5-|
|-5-5----------------------7----------|
|-------------------------------------|

|-------------------------------------|
|-------------------------------------|
|-----4-4-4-5-4-4-------4-5-5-5-7-5-4-|
|-5-7-------------7---7---------------|
|-------------------------------------|
|-------------------------------------|

|-------------------------------------------------------------|
|-------------------------------------------------------------|
|-7-7-7-4---7-4----------------6------------------------------|
|---------5-----5-------------8--8----------------------------|
|-----------------5-5-5-5-6-7-----10-10/13-11-9---------------|
|-------------------------------------------------------------|

|--------------------------------------------------------------------|
|--------------------------------------------------------------------|
|--------------------------------------------------------------------|
|--------------------------------------------------------------------|
|-8-8-8-8-9-11-11/13-13-13/14-16-14-13-13/14-13-11-11/13-11-10/11-10-|
---------------------------------------------------------------------|

|--------------------------------------------------------------|
|--------------------------------------------------------------|
|--------------------------------------------------------14/15-|
|-11/13-13-----------------------------------------------------|
|----------13/15-11-11-13x2-6-6/11-13-13/15-16-18-20-13--------|
|--------------------------------------------------------------|

|-------------------------------------------------|
|-------------------------------------------------|
|-------------------------------------------------|
|-11/13-11-5-5/6----------------------------------|
|-------------------------------------------------|
|-------------------------------------------------|
Tap to rate this tab
# A B C D E F G H I J K L M N O P Q R S T U V W X Y Z