Song name
# A B C D E F G H I J K L M N O P Q R S T U V W X Y Z

Misc Traditional - The Olympic Song tab

                                                                     Mitchyo
                                                            The Olympic Song
                                                            Misc Traditional

Standard Tuning

E---3--6-6------3--|------------3----------3----|-3--6-6-----3--|
B---------4--6----4|-6-6-6-6--6---6-4--4-6---4-6|-------4--6---4|
G------------------|----------------------------|---------------|
D------------------|----------------------------|---------------|
A------------------|----------------------------|---------------|
E------------------|----------------------------|---------------|



E------------3----------3----|
B-6-6-6-6--6---6-4--4-6---6-4|
G----------------------------|
D----------------------------| 2x
A----------------------------|
E----------------------------|

This is the very beginning of the song, right after the drums.  

That is it for the intro.  Please like and have fun!

Thanks, Mitchyo
Tap to rate this tab
# A B C D E F G H I J K L M N O P Q R S T U V W X Y Z