Song name
# A B C D E F G H I J K L M N O P Q R S T U V W X Y Z

Misc Traditional - Irish National Anthem tab

This is the tab for Amhrán na bhFiann (Irish National Anthem) sounds
perfect to me, with a bit of a rock tone, if u dont like how high pitched
it is just move up a string and play it i tried and it sounds the same only in a lower pitch,
if you want u can add in your own slides and bends to make it sound better and more rockish, 
you'll know were to put them in.

Enjoy!!!!   


UP DA IRISH


e|-------------------------------------------------------------------------|
b|----8----10----12----8----3----5----5----1----5----3----(5)--3-----------|
g|-------------------------------------------------------------------------|
d|-------------------------------------------------------------------------|
a|-------------------------------------------------------------------------|
E|-------------------------------------------------------------------------|


e|-------------------------------------------------------------------------|
b|----8----7----5----7----8----10----12----10----8----7--------------------|
g|-------------------------------------------------------------------------|
d|-------------------------------------------------------------------------|
a|-------------------------------------------------------------------------|
E|-------------------------------------------------------------------------|



e|-------------------------------------------------------------------------|
b|----8----10----12----8----3----5----5----1----5----3----(5)--3-----------|
g|-------------------------------------------------------------------------|
d|-------------------------------------------------------------------------|
a|-------------------------------------------------------------------------|
E|-------------------------------------------------------------------------|



e|-----------------------------------------------------------|
b|----3----8----8----8----8----8----7----5----3----3---------|
g|-----------------------------------------------------------|
d|-----------------------------------------------------------|
a|-----------------------------------------------------------|
E|-----------------------------------------------------------|


e|-----------------------------------------------------------|
b|----3----1---------1--------------1----3----5----3---------|
g|--------------4---------2----4-----------------------------|
d|-----------------------------------------------------------|
a|-----------------------------------------------------------|
E|-----------------------------------------------------------|


e|-----------------------------------------------|
b|----8----7----5----7----5----3----1------------|
g|---------------------------------------2-------|
d|-----------------------------------------------|
a|-----------------------------------------------|
E|-----------------------------------------------|


e|---------------------------------------------------------------------|
b|----3-------------------3----3----5----7----8----10----12------------|
g|---------4----2----4-------------------------------------------------|
d|---------------------------------------------------------------------|
a|---------------------------------------------------------------------|
E|---------------------------------------------------------------------|


e|-------------------------------------------------------------------------|
b|----8----5----3----8----12----10----8----8-------------------------------|
g|-------------------------------------------------------------------------|
d|-------------------------------------------------------------------------|
a|-------------------------------------------------------------------------|
E|-------------------------------------------------------------------------|
Tap to rate this tab
# A B C D E F G H I J K L M N O P Q R S T U V W X Y Z