Song name
# A B C D E F G H I J K L M N O P Q R S T U V W X Y Z

Misc Traditional - Hall Of The Mountian King tab

Part 1 (High)
E||--------0---0-----------------0-0-5-3-0---0-3------|
B||--0-1-2---1---4-4--3-3--0-1-2--1--------1----------|
G||-2-------------4----3--2---------------------------|
D||---------------------------------------------------|
A||---------------------------------------------------|
E||---------------------------------------------------|

E||----------------------|
B||--------0-0-1-1-0-----|   (x2)
G||----1-2--1---2--------|
D||-2-4------------------|
A||----------------------|
E||----------------------|

E||-0-2-3-5-7-3-7-8-5-8-7--0-2-3-5-7-3-7-12--9--7-3-7-9---|
B||-------------------------------------------------------|
G||-------------------------------------------------------|
D||-------------------------------------------------------|
A||-------------------------------------------------------|
E||-------------------------------------------------------|

Part 2 (baseline)

E||-------------------------------------------------|
B||-------------------------------------------------|
G||-------------------------------------------------|
D||-------------------------------------2-0---0-----|
A||-------0-2-2-0-0--------------0-2--2----2-2------|
E||-0-2-3----3---2--3-0-3--0-2-3-----3------3-------|

E||------------------------|
B||------------------------|  (x2)
G||------------------------|
D||-----0-2--2-1--1-0--0---|
A||0-2-3---3----2-----1----|
E||------------------------|
If there are any questions you can contact me at dantefaucillon@yahoo.com thanks
Tap to rate this tab
 
# A B C D E F G H I J K L M N O P Q R S T U V W X Y Z