Song name
# A B C D E F G H I J K L M N O P Q R S T U V W X Y Z

Misc Traditional - Auld Lang Syne tab

I got this from am old Christmas book so it's easier and more traditional sounding and 
on easier frets. Find the tune and this is really easy to play and sounds great!

e|---------------0-----------0-----------0--3--5--5--3--0--0-----------------|
B|------1--0--1-----3--1--3-----3--1--1----------------------1--3--1--3------|
G|---0-----------------------------------------------------------------------|
D|---------------------------------------------------------------------------|
A|---------------------------------------------------------------------------|
E|---------------------------------------------------------------------------|

e|---0--------------------5--3--0--0--------------5--3--0--0--3--5-----------|
B|------3--1-----------1--------------1--3--1--3-----------------------------|
G|------------2--2--0--------------------------------------------------------|
D|---------------------------------------------------------------------------|
A|---------------------------------------------------------------------------|
E|---------------------------------------------------------------------------|

e|---5--3--0--0--------------0-----------------------------------------------|
B|---------------1--3--1--3-----3--1-----------1-----------------------------|
G|------------------------------------2--2--0--------------------------------|
D|---------------------------------------------------------------------------|
A|---------------------------------------------------------------------------|
E|---------------------------------------------------------------------------|
Tap to rate this tab
 
# A B C D E F G H I J K L M N O P Q R S T U V W X Y Z