Song name
# A B C D E F G H I J K L M N O P Q R S T U V W X Y Z

Misc Traditional - St Annes Reel tab

-------------------------------------------------------------------------------
                             St. Anne's Reel - Misc. Traditional
-------------------------------------------------------------------------------
Tabbed by: BMacdonald
E-mail:brenmac0@yaho.com

Tuning:Standard

e|| -----|-2---2-3-2-0-----|-----------------|-----------------|-----------------|-2---2-3-2-0-----|
B|| ---3-|-------------3-0-|---------------3-|-0-----0-----0-3-|---------------3-|-------------3-0-|
G||.-2---|-----------------|-2-----2-----2---|-----0-----0-----|-2-----2-----2---|-----------------|
D||.-----|-----------------|-----4---0-4-----|---------0-------|-----4---0-4-----|-----------------|
A|| -----|-----------------|-----------------|-----------------|-----------------|-----------------|
E|| -----|-----------------|-----------------|-----------------|-----------------|-----------------|

e|-----------------|---------------0-|--------------||
B|---------------3-|-0---0-3-2---2---|-3---3-3-3----||
G|-2-----2-----2---|---0-------2-----|-------------.||
D|-----4---0-4-----|-----------------|-------------.||
A|-----------------|-----------------|--------------||
E|-----------------|-----------------|--------------||

e|| -5-3-|-2---2-5-2---2-3-|-5-3-3-2-3---3-2-|-0-----------0-3-|-7-5-5-4-5---5-4-|-2---2-5-2---2-3-|
B|| -----|---3-------3-----|-----------------|---3-2-0---2-----|-----------------|---3-------3-----|
G||.-----|-----------------|-----------------|---------2-------|-----------------|-----------------|
D||.-----|-----------------|-----------------|-----------------|-----------------|-----------------|
A|| -----|-----------------|-----------------|-----------------|-----------------|-----------------|
E|| -----|-----------------|-----------------|-----------------|-----------------|-----------------|

e|-5-3-3-2-3---3-2-|-0-3---------0-3-|-2---0--------||
B|-----------------|-----2-0---2-----|---3---2-3----||
G|-----------------|---------2-------|-------------.||
D|-----------------|-----------------|-------------.||
A|-----------------|-----------------|--------------||
E|-----------------|-----------------|--------------||
Tap to rate this tab
# A B C D E F G H I J K L M N O P Q R S T U V W X Y Z