Song name
# A B C D E F G H I J K L M N O P Q R S T U V W X Y Z

Misc Traditional - Army Blue tab

Army Blue (Aura Lea)
(play first bar twice)(play either on the e & B strings or the D & G strings)
e |-----3-2-3-5-0-5-3-3-2-0-2-3-------------------------------|
B |-3-3-------------------------------------------------------|
G |-----0---0-2---2-0-0-------0-------------------------------|
D |-0-0---4-----2-------4-2-4---------------------------------|
A |-----------------------------------------------------------|
E |-----------------------------------------------------------|

e |-7-7-7---7-7-7---7-7-5-5-3-5-7-----------------------------|
B |-----------------------------------------------------------|
G |-4-4-4---4-4-4---4-4-2-2-0-2-4-----------------------------|
D |-----------------------------------------------------------|
A |-----------------------------------------------------------|
E |-----------------------------------------------------------|

e |-7-7-7-8-7-5-0-5-3-3-2-2-0-2-3--------------------------|
B |-------1------------------------------------------------|
G |-4-4-4---4-2---2-0-0---------0--------------------------|
D |-------------2-------4-4-2-4----------------------------|
A |--------------------------------------------------------|
E |--------------------------------------------------------|
Tap to rate this tab
 
# A B C D E F G H I J K L M N O P Q R S T U V W X Y Z