Song name
# A B C D E F G H I J K L M N O P Q R S T U V W X Y Z

Misc Traditional - Poor Wayfaring Stranger tab

(/) Slide Up  (\) Slide Down  (h) Hammer On  (p) Pull Off  (b) Bend (r) Release (v) Vibrato


E|--------------------------------------------------|
B|-----------0--------0--------------------------0--|
G|--------0-----0--2-----0--------0--2-----0--2-----|
D|--2--2--------------------2--2--------2-----------|
A|--------------------------------------------------|
E|--------------------------------------------------|


E|----------------------------------------------------|
B|-----3--0--------0----------------------------------|
G|-----------0--2-----0-----------0--2--0-------------|
D|--2--------------------2--2--2-----------2--0--0h2--|
A|----------------------------------------------------|
E|----------------------------------------------------|


E|-------------------------|
B|--0--0h3--5--3--5--3--0--|
G|-------------------------|
D|-------------------------|
A|-------------------------|
E|-------------------------|   x2


E|-------------------------------------------------------|
B|-----------0--------0----------------------------------|
G|--------0-----0--2-----0-----------0--2--0-------------|
D|--2--2--------------------2--2--2-----------2--0--0h2--|
A|-------------------------------------------------------|
E|-------------------------------------------------------|
Tap to rate this tab
 
# A B C D E F G H I J K L M N O P Q R S T U V W X Y Z