Song name
# A B C D E F G H I J K L M N O P Q R S T U V W X Y Z

Misc Traditional - The Maple Leaf Forever tab

This is a simplfied version of 'The Maple Leaf Forever' by Alexander Muir.

Intro/Verse:
E|--3--0--3--12--8--5--8--3--7--8--10--8--7--5--3--|
B|-------------------------------------------------|
G|-------------------------------------------------|
D|-------------------------------------------------|
A|-------------------------------------------------|
E|-------------------------------------------------|

E|--1--0--3--8--8--12--8--5--7--8--10--10--8--10--8--7--5--3-|
B|-----------------------------------------------------------|
G|-----------------------------------------------------------|
D|-----------------------------------------------------------|
A|-----------------------------------------------------------|
E|-----------------------------------------------------------|


E|--3--5--3--8--3--5--8--3----3--5--5--13--12--12--10---|
B|------------------------------------------------------|
G|------------------------------------------------------|
D|------------------------------------------------------|
A|------------------------------------------------------|
E|------------------------------------------------------|


E|---3--15--12--8--7--5--8--3--4--5--13--12--10--8--|
B|--------------------------------------------------|
G|--------------------------------------------------|
D|--------------------------------------------------|
A|--------------------------------------------------|
E|--------------------------------------------------|


Chorus:
E|--3--5--3--8--3--5--8--3----3--5--5--13--12--12--10--|
B|-----------------------------------------------------|
G|-----------------------------------------------------|
D|-----------------------------------------------------|
A|-----------------------------------------------------|
E|-----------------------------------------------------|

E|---3--15--12--8--7--5--8--3--4--5--13--12--10--8--|
B|--------------------------------------------------|
G|--------------------------------------------------|
D|--------------------------------------------------|
A|--------------------------------------------------|
E|--------------------------------------------------|
Tap to rate this tab
# A B C D E F G H I J K L M N O P Q R S T U V W X Y Z