Song name
# A B C D E F G H I J K L M N O P Q R S T U V W X Y Z

Misc Traditional - Turkey In The Straw tab

Tabbed by: Kipp Dunn
E-mail: Kipp.dunn@gmail.com

Hey guys!  First tab!  I'm working on the banjo and mandolin version if this now!
If you'd like to by notified when they come out email me!

This is spot on accurate!  Email me if you have any questions.

e|-----------------------------------------------------------------------------|
B|-----------------------------------------------------------------------------|
G|---4-2-0---0-2-0--------------------------0-2-4-4-4-2-0-2-4-2-2--------------|
D|-----------4---------0--------0-2-0----0-------------------------------------|
A|--------------------------2-3---------2--------------------------------------|
E|-----------------------------------------------------------------------------|

e|-----------------------------------------------------------------------------|
B|------------------------------------------------------3-3--------------------|
G|---4-2-0---0-2-0-------------------------0-2-4-------4-0-2-4-2-0-------------|
D|-----------4---------0--------0-2-0---0--------------------------------------|
A|--------------------------2-3---------2--------------------------------------|
E|-----------------------------------------------------------------------------|


e|-----------------------------------------------------0-2-3-3-----------------|
B|-----3---3--3---3---3----5----5--5----5----5-------------3-3-----------------|
G|--4---4-------4---4----5---5--------5----5-----------------------------------|
D|-----------------------------------------------------------------------------|
A|-----------------------------------------------------------------------------|
E|-----------------------------------------------------------------------------|

e|-----------------------------------------------------------------------------|
B|---------------------------3-3-----------------------------------------------|
G|--4-2-0-4-2----0-2-4--------4-0-2-4-2-0--------------------------------------|
D|-----------------------------------------------------------------------------|
A|-----------------------------------------------------------------------------|
E|-----------------------------------------------------------------------------|
Tap to rate this tab
 
# A B C D E F G H I J K L M N O P Q R S T U V W X Y Z